0
SECTION
2
HEADER
9
$ACADVER
1
AC1003
9
$EXTMIN
10
1103.000000
20
0.000000
9
$EXTMAX
10
0.000000
20
959.000000
9
$LIMMIN
10
1103.000000
20
0.000000
9
$LIMMAX
10
0.000000
20
959.000000
0
ENDSEC
0
SECTION
2
TABLES
0
TABLE
2
LAYER
70
1
0
LAYER
2
0
70
64
62
3
6
CONTINUOUS
0
ENDTAB
0
ENDSEC
0
SECTION
2
BLOCKS
0
ENDSEC
0
SECTION
2
ENTITIES
0
POLYLINE
8
0
6
CONTINUOUS
66
1
10
0.0
20
0.0
30
0.000000
0
VERTEX
8
0
10
1.007500
20
-2.542500
30
0.000000
0
VERTEX
8
0
10
1.005000
20
-2.540000
30
0.000000
0
VERTEX
8
0
10
1.000000
20
-2.540000
30
0.000000
0
VERTEX
8
0
10
0.992500
20
-2.547500
30
0.000000
0
VERTEX
8
0
10
0.992500
20
-2.552500
30
0.000000
0
VERTEX
8
0
10
0.970000
20
-2.560000
30
0.000000
0
VERTEX
8
0
10
0.965000
20
-2.567500
30
0.000000
0
VERTEX
8
0
10
0.960000
20
-2.562500
30
0.000000
0
VERTEX
8
0
10
0.940000
20
-2.567500
30
0.000000
0
VERTEX
8
0
10
0.935000
20
-2.572500
30
0.000000
0
VERTEX
8
0
10
0.937500
20
-2.575000
30
0.000000
0
VERTEX
8
0
10
0.930000
20
-2.570000
30
0.000000
0
VERTEX
8
0
10
0.917500
20
-2.582500
30
0.000000
0
VERTEX
8
0
10
0.910000
20
-2.607500
30
0.000000
0
VERTEX
8
0
10
0.897500
20
-2.610000
30
0.000000
0
VERTEX
8
0
10
0.892500
20
-2.615000
30
0.000000
0
VERTEX
8
0
10
0.890000
20
-2.635000
30
0.000000
0
VERTEX
8
0
10
0.882500
20
-2.640000
30
0.000000
0
VERTEX
8
0
10
0.867500
20
-2.637500
30
0.000000
0
VERTEX
8
0
10
0.860000
20
-2.642500
30
0.000000
0
VERTEX
8
0
10
0.845000
20
-2.687500
30
0.000000
0
VERTEX
8
0
10
0.845000
20
-2.712500
30
0.000000
0
VERTEX
8
0
10
0.827500
20
-2.737500
30
0.000000
0
VERTEX
8
0
10
0.827500
20
-2.755000
30
0.000000
0
VERTEX
8
0
10
0.822500
20
-2.765000
30
0.000000
0
VERTEX
8
0
10
0.787500
20
-2.795000
30
0.000000
0
VERTEX
8
0
10
0.787500
20
-2.800000
30
0.000000
0
VERTEX
8
0
10
0.770000
20
-2.822500
30
0.000000
0
VERTEX
8
0
10
0.757500
20
-2.827500
30
0.000000
0
VERTEX
8
0
10
0.715000
20
-2.875000
30
0.000000
0
VERTEX
8
0
10
0.710000
20
-2.875000
30
0.000000
0
VERTEX
8
0
10
0.682500
20
-2.907500
30
0.000000
0
VERTEX
8
0
10
0.677500
20
-2.907500
30
0.000000
0
VERTEX
8
0
10
0.670000
20
-2.920000
30
0.000000
0
VERTEX
8
0
10
0.665000
20
-2.920000
30
0.000000
0
VERTEX
8
0
10
0.650000
20
-2.940000
30
0.000000
0
VERTEX
8
0
10
0.645000
20
-2.940000
30
0.000000
0
VERTEX
8
0
10
0.617500
20
-2.967500
30
0.000000
0
VERTEX
8
0
10
0.607500
20
-2.970000
30
0.000000
0
VERTEX
8
0
10
0.567500
20
-3.012500
30
0.000000
0
VERTEX
8
0
10
0.550000
20
-3.025000
30
0.000000
0
VERTEX
8
0
10
0.550000
20
-3.030000
30
0.000000
0
VERTEX
8
0
10
0.532500
20
-3.047500
30
0.000000
0
VERTEX
8
0
10
0.530000
20
-3.055000
30
0.000000
0
VERTEX
8
0
10
0.525000
20
-3.055000
30
0.000000
0
VERTEX
8
0
10
0.480000
20
-3.110000
30
0.000000
0
VERTEX
8
0
10
0.390000
20
-3.200000
30
0.000000
0
VERTEX
8
0
10
0.385000
20
-3.210000
30
0.000000
0
VERTEX
8
0
10
0.332500
20
-3.265000
30
0.000000
0
VERTEX
8
0
10
0.325000
20
-3.267500
30
0.000000
0
VERTEX
8
0
10
0.302500
20
-3.300000
30
0.000000
0
VERTEX
8
0
10
0.250000
20
-3.355000
30
0.000000
0
VERTEX
8
0
10
0.250000
20
-3.372500
30
0.000000
0
VERTEX
8
0
10
0.257500
20
-3.370000
30
0.000000
0
VERTEX
8
0
10
0.332500
20
-3.295000
30
0.000000
0
VERTEX
8
0
10
0.352500
20
-3.285000
30
0.000000
0
VERTEX
8
0
10
0.387500
20
-3.250000
30
0.000000
0
VERTEX
8
0
10
0.397500
20
-3.247500
30
0.000000
0
VERTEX
8
0
10
0.415000
20
-3.232500
30
0.000000
0
VERTEX
8
0
10
0.430000
20
-3.235000
30
0.000000
0
VERTEX
8
0
10
0.447500
20
-3.220000
30
0.000000
0
VERTEX
8
0
10
0.447500
20
-3.215000
30
0.000000
0
VERTEX
8
0
10
0.462500
20
-3.205000
30
0.000000
0
VERTEX
8
0
10
0.470000
20
-3.182500
30
0.000000
0
VERTEX
8
0
10
0.475000
20
-3.187500
30
0.000000
0
VERTEX
8
0
10
0.485000
20
-3.182500
30
0.000000
0
VERTEX
8
0
10
0.487500
20
-3.160000
30
0.000000
0
VERTEX
8
0
10
0.497500
20
-3.157500
30
0.000000
0
VERTEX
8
0
10
0.507500
20
-3.145000
30
0.000000
0
VERTEX
8
0
10
0.535000
20
-3.142500
30
0.000000
0
VERTEX
8
0
10
0.550000
20
-3.130000
30
0.000000
0
VERTEX
8
0
10
0.570000
20
-3.125000
30
0.000000
0
VERTEX
8
0
10
0.515000
20
-3.170000
30
0.000000
0
VERTEX
8
0
10
0.507500
20
-3.180000
30
0.000000
0
VERTEX
8
0
10
0.500000
20
-3.182500
30
0.000000
0
VERTEX
8
0
10
0.417500
20
-3.252500
30
0.000000
0
VERTEX
8
0
10
0.397500
20
-3.265000
30
0.000000
0
VERTEX
8
0
10
0.392500
20
-3.272500
30
0.000000
0
VERTEX
8
0
10
0.400000
20
-3.275000
30
0.000000
0
VERTEX
8
0
10
0.447500
20
-3.250000
30
0.000000
0
VERTEX
8
0
10
0.465000
20
-3.227500
30
0.000000
0
VERTEX
8
0
10
0.490000
20
-3.220000
30
0.000000
0
VERTEX
8
0
10
0.507500
20
-3.192500
30
0.000000
0
VERTEX
8
0
10
0.522500
20
-3.185000
30
0.000000
0
VERTEX
8
0
10
0.532500
20
-3.185000
30
0.000000
0
VERTEX
8
0
10
0.555000
20
-3.165000
30
0.000000
0
VERTEX
8
0
10
0.555000
20
-3.152500
30
0.000000
0
VERTEX
8
0
10
0.565000
20
-3.152500
30
0.000000
0
VERTEX
8
0
10
0.572500
20
-3.157500
30
0.000000
0
VERTEX
8
0
10
0.577500
20
-3.150000
30
0.000000
0
VERTEX
8
0
10
0.617500
20
-3.140000
30
0.000000
0
VERTEX
8
0
10
0.622500
20
-3.127500
30
0.000000
0
VERTEX
8
0
10
0.640000
20
-3.125000
30
0.000000
0
VERTEX
8
0
10
0.652500
20
-3.115000
30
0.000000
0
VERTEX
8
0
10
0.677500
20
-3.112500
30
0.000000
0
VERTEX
8
0
10
0.727500
20
-3.087500
30
0.000000
0
VERTEX
8
0
10
0.740000
20
-3.077500
30
0.000000
0
VERTEX
8
0
10
0.765000
20
-3.075000
30
0.000000
0
VERTEX
8
0
10
0.770000
20
-3.080000
30
0.000000
0
VERTEX
8
0
10
0.777500
20
-3.102500
30
0.000000
0
VERTEX
8
0
10
0.785000
20
-3.177500
30
0.000000
0
VERTEX
8
0
10
0.792500
20
-3.195000
30
0.000000
0
VERTEX
8
0
10
0.792500
20
-3.245000
30
0.000000
0
VERTEX
8
0
10
0.787500
20
-3.252500
30
0.000000
0
VERTEX
8
0
10
0.790000
20
-3.290000
30
0.000000
0
VERTEX
8
0
10
0.782500
20
-3.342500
30
0.000000
0
VERTEX
8
0
10
0.785000
20
-3.357500
30
0.000000
0
VERTEX
8
0
10
0.775000
20
-3.365000
30
0.000000
0
VERTEX
8
0
10
0.772500
20
-3.375000
30
0.000000
0
VERTEX
8
0
10
0.752500
20
-3.390000
30
0.000000
0
VERTEX
8
0
10
0.735000
20
-3.387500
30
0.000000
0
VERTEX
8
0
10
0.717500
20
-3.402500
30
0.000000
0
VERTEX
8
0
10
0.692500
20
-3.402500
30
0.000000
0
VERTEX
8
0
10
0.660000
20
-3.417500
30
0.000000
0
VERTEX
8
0
10
0.637500
20
-3.415000
30
0.000000
0
VERTEX
8
0
10
0.620000
20
-3.420000
30
0.000000
0
VERTEX
8
0
10
0.572500
20
-3.420000
30
0.000000
0
VERTEX
8
0
10
0.517500
20
-3.435000
30
0.000000
0
VERTEX
8
0
10
0.500000
20
-3.432500
30
0.000000
0
VERTEX
8
0
10
0.495000
20
-3.440000
30
0.000000
0
VERTEX
8
0
10
0.480000
20
-3.445000
30
0.000000
0
VERTEX
8
0
10
0.472500
20
-3.452500
30
0.000000
0
VERTEX
8
0
10
0.460000
20
-3.452500
30
0.000000
0
VERTEX
8
0
10
0.455000
20
-3.457500
30
0.000000
0
VERTEX
8
0
10
0.440000
20
-3.460000
30
0.000000
0
VERTEX
8
0
10
0.435000
20
-3.470000
30
0.000000
0
VERTEX
8
0
10
0.417500
20
-3.470000
30
0.000000
0
VERTEX
8
0
10
0.410000
20
-3.477500
30
0.000000
0
VERTEX
8
0
10
0.387500
20
-3.480000
30
0.000000
0
VERTEX
8
0
10
0.362500
20
-3.497500
30
0.000000
0
VERTEX
8
0
10
0.347500
20
-3.497500
30
0.000000
0
VERTEX
8
0
10
0.330000
20
-3.507500
30
0.000000
0
VERTEX
8
0
10
0.317500
20
-3.507500
30
0.000000
0
VERTEX
8
0
10
0.300000
20
-3.515000
30
0.000000
0
VERTEX
8
0
10
0.290000
20
-3.525000
30
0.000000
0
VERTEX
8
0
10
0.275000
20
-3.525000
30
0.000000
0
VERTEX
8
0
10
0.260000
20
-3.535000
30
0.000000
0
VERTEX
8
0
10
0.210000
20
-3.547500
30
0.000000
0
VERTEX
8
0
10
0.195000
20
-3.547500
30
0.000000
0
VERTEX
8
0
10
0.177500
20
-3.530000
30
0.000000
0
VERTEX
8
0
10
0.170000
20
-3.515000
30
0.000000
0
VERTEX
8
0
10
0.177500
20
-3.467500
30
0.000000
0
VERTEX
8
0
10
0.170000
20
-3.465000
30
0.000000
0
VERTEX
8
0
10
0.147500
20
-3.500000
30
0.000000
0
VERTEX
8
0
10
0.142500
20
-3.512500
30
0.000000
0
VERTEX
8
0
10
0.130000
20
-3.515000
30
0.000000
0
VERTEX
8
0
10
0.120000
20
-3.537500
30
0.000000
0
VERTEX
8
0
10
0.112500
20
-3.540000
30
0.000000
0
VERTEX
8
0
10
0.095000
20
-3.560000
30
0.000000
0
VERTEX
8
0
10
0.070000
20
-3.607500
30
0.000000
0
VERTEX
8
0
10
0.070000
20
-3.680000
30
0.000000
0
VERTEX
8
0
10
0.080000
20
-3.695000
30
0.000000
0
VERTEX
8
0
10
0.080000
20
-3.705000
30
0.000000
0
VERTEX
8
0
10
0.100000
20
-3.750000
30
0.000000
0
VERTEX
8
0
10
0.100000
20
-3.757500
30
0.000000
0
VERTEX
8
0
10
0.112500
20
-3.767500
30
0.000000
0
VERTEX
8
0
10
0.115000
20
-3.777500
30
0.000000
0
VERTEX
8
0
10
0.145000
20
-3.807500
30
0.000000
0
VERTEX
8
0
10
0.167500
20
-3.817500
30
0.000000
0
VERTEX
8
0
10
0.177500
20
-3.827500
30
0.000000
0
VERTEX
8
0
10
0.192500
20
-3.830000
30
0.000000
0
VERTEX
8
0
10
0.212500
20
-3.847500
30
0.000000
0
VERTEX
8
0
10
0.220000
20
-3.847500
30
0.000000
0
VERTEX
8
0
10
0.227500
20
-3.855000
30
0.000000
0
VERTEX
8
0
10
0.237500
20
-3.855000
30
0.000000
0
VERTEX
8
0
10
0.247500
20
-3.862500
30
0.000000
0
VERTEX
8
0
10
0.277500
20
-3.870000
30
0.000000
0
VERTEX
8
0
10
0.285000
20
-3.877500
30
0.000000
0
VERTEX
8
0
10
0.317500
20
-3.877500
30
0.000000
0
VERTEX
8
0
10
0.330000
20
-3.885000
30
0.000000
0
VERTEX
8
0
10
0.350000
20
-3.887500
30
0.000000
0
VERTEX
8
0
10
0.357500
20
-3.882500
30
0.000000
0
VERTEX
8
0
10
0.390000
20
-3.877500
30
0.000000
0
VERTEX
8
0
10
0.397500
20
-3.870000
30
0.000000
0
VERTEX
8
0
10
0.407500
20
-3.870000
30
0.000000
0
VERTEX
8
0
10
0.432500
20
-3.860000
30
0.000000
0
VERTEX
8
0
10
0.452500
20
-3.840000
30
0.000000
0
VERTEX
8
0
10
0.460000
20
-3.840000
30
0.000000
0
VERTEX
8
0
10
0.477500
20
-3.822500
30
0.000000
0
VERTEX
8
0
10
0.487500
20
-3.820000
30
0.000000
0
VERTEX
8
0
10
0.492500
20
-3.812500
30
0.000000
0
VERTEX
8
0
10
0.500000
20
-3.812500
30
0.000000
0
VERTEX
8
0
10
0.525000
20
-3.790000
30
0.000000
0
VERTEX
8
0
10
0.537500
20
-3.787500
30
0.000000
0
VERTEX
8
0
10
0.560000
20
-3.765000
30
0.000000
0
VERTEX
8
0
10
0.577500
20
-3.760000
30
0.000000
0
VERTEX
8
0
10
0.600000
20
-3.737500
30
0.000000
0
VERTEX
8
0
10
0.622500
20
-3.730000
30
0.000000
0
VERTEX
8
0
10
0.617500
20
-3.737500
30
0.000000
0
VERTEX
8
0
10
0.617500
20
-3.747500
30
0.000000
0
VERTEX
8
0
10
0.607500
20
-3.755000
30
0.000000
0
VERTEX
8
0
10
0.607500
20
-3.770000
30
0.000000
0
VERTEX
8
0
10
0.595000
20
-3.777500
30
0.000000
0
VERTEX
8
0
10
0.587500
20
-3.805000
30
0.000000
0
VERTEX
8
0
10
0.575000
20
-3.822500
30
0.000000
0
VERTEX
8
0
10
0.572500
20
-3.842500
30
0.000000
0
VERTEX
8
0
10
0.560000
20
-3.855000
30
0.000000
0
VERTEX
8
0
10
0.552500
20
-3.877500
30
0.000000
0
VERTEX
8
0
10
0.545000
20
-3.885000
30
0.000000
0
VERTEX
8
0
10
0.542500
20
-3.897500
30
0.000000
0
VERTEX
8
0
10
0.532500
20
-3.905000
30
0.000000
0
VERTEX
8
0
10
0.520000
20
-3.935000
30
0.000000
0
VERTEX
8
0
10
0.510000
20
-3.940000
30
0.000000
0
VERTEX
8
0
10
0.500000
20
-3.950000
30
0.000000
0
VERTEX
8
0
10
0.500000
20
-3.955000
30
0.000000
0
VERTEX
8
0
10
0.482500
20
-3.970000
30
0.000000
0
VERTEX
8
0
10
0.477500
20
-3.987500
30
0.000000
0
VERTEX
8
0
10
0.465000
20
-4.000000
30
0.000000
0
VERTEX
8
0
10
0.465000
20
-4.007500
30
0.000000
0
VERTEX
8
0
10
0.447500
20
-4.030000
30
0.000000
0
VERTEX
8
0
10
0.447500
20
-4.040000
30
0.000000
0
VERTEX
8
0
10
0.432500
20
-4.055000
30
0.000000
0
VERTEX
8
0
10
0.432500
20
-4.067500
30
0.000000
0
VERTEX
8
0
10
0.422500
20
-4.077500
30
0.000000
0
VERTEX
8
0
10
0.417500
20
-4.095000
30
0.000000
0
VERTEX
8
0
10
0.415000
20
-4.145000
30
0.000000
0
VERTEX
8
0
10
0.405000
20
-4.160000
30
0.000000
0
VERTEX
8
0
10
0.402500
20
-4.182500
30
0.000000
0
VERTEX
8
0
10
0.387500
20
-4.205000
30
0.000000
0
VERTEX
8
0
10
0.390000
20
-4.230000
30
0.000000
0
VERTEX
8
0
10
0.385000
20
-4.240000
30
0.000000
0
VERTEX
8
0
10
0.360000
20
-4.237500
30
0.000000
0
VERTEX
8
0
10
0.350000
20
-4.222500
30
0.000000
0
VERTEX
8
0
10
0.360000
20
-4.192500
30
0.000000
0
VERTEX
8
0
10
0.335000
20
-4.172500
30
0.000000
0
VERTEX
8
0
10
0.312500
20
-4.170000
30
0.000000
0
VERTEX
8
0
10
0.275000
20
-4.212500
30
0.000000
0
VERTEX
8
0
10
0.275000
20
-4.220000
30
0.000000
0
VERTEX
8
0
10
0.282500
20
-4.232500
30
0.000000
0
VERTEX
8
0
10
0.270000
20
-4.232500
30
0.000000
0
VERTEX
8
0
10
0.262500
20
-4.222500
30
0.000000
0
VERTEX
8
0
10
0.255000
20
-4.222500
30
0.000000
0
VERTEX
8
0
10
0.245000
20
-4.232500
30
0.000000
0
VERTEX
8
0
10
0.252500
20
-4.250000
30
0.000000
0
VERTEX
8
0
10
0.265000
20
-4.250000
30
0.000000
0
VERTEX
8
0
10
0.280000
20
-4.262500
30
0.000000
0
VERTEX
8
0
10
0.282500
20
-4.277500
30
0.000000
0
VERTEX
8
0
10
0.262500
20
-4.310000
30
0.000000
0
VERTEX
8
0
10
0.260000
20
-4.322500
30
0.000000
0
VERTEX
8
0
10
0.240000
20
-4.332500
30
0.000000
0
VERTEX
8
0
10
0.230000
20
-4.342500
30
0.000000
0
VERTEX
8
0
10
0.232500
20
-4.365000
30
0.000000
0
VERTEX
8
0
10
0.265000
20
-4.352500
30
0.000000
0
VERTEX
8
0
10
0.315000
20
-4.357500
30
0.000000
0
VERTEX
8
0
10
0.337500
20
-4.352500
30
0.000000
0
VERTEX
8
0
10
0.317500
20
-4.375000
30
0.000000
0
VERTEX
8
0
10
0.322500
20
-4.387500
30
0.000000
0
VERTEX
8
0
10
0.297500
20
-4.385000
30
0.000000
0
VERTEX
8
0
10
0.280000
20
-4.395000
30
0.000000
0
VERTEX
8
0
10
0.275000
20
-4.392500
30
0.000000
0
VERTEX
8
0
10
0.267500
20
-4.397500
30
0.000000
0
VERTEX
8
0
10
0.247500
20
-4.400000
30
0.000000
0
VERTEX
8
0
10
0.242500
20
-4.405000
30
0.000000
0
VERTEX
8
0
10
0.245000
20
-4.410000
30
0.000000
0
VERTEX
8
0
10
0.217500
20
-4.407500
30
0.000000
0
VERTEX
8
0
10
0.200000
20
-4.417500
30
0.000000
0
VERTEX
8
0
10
0.205000
20
-4.430000
30
0.000000
0
VERTEX
8
0
10
0.190000
20
-4.437500
30
0.000000
0
VERTEX
8
0
10
0.195000
20
-4.442500
30
0.000000
0
VERTEX
8
0
10
0.217500
20
-4.442500
30
0.000000
0
VERTEX
8
0
10
0.222500
20
-4.450000
30
0.000000
0
VERTEX
8
0
10
0.227500
20
-4.450000
30
0.000000
0
VERTEX
8
0
10
0.230000
20
-4.445000
30
0.000000
0
VERTEX
8
0
10
0.252500
20
-4.445000
30
0.000000
0
VERTEX
8
0
10
0.252500
20
-4.432500
30
0.000000
0
VERTEX
8
0
10
0.270000
20
-4.432500
30
0.000000
0
VERTEX
8
0
10
0.275000
20
-4.427500
30
0.000000
0
VERTEX
8
0
10
0.280000
20
-4.430000
30
0.000000
0
VERTEX
8
0
10
0.300000
20
-4.422500
30
0.000000
0
VERTEX
8
0
10
0.312500
20
-4.410000
30
0.000000
0
VERTEX
8
0
10
0.317500
20
-4.417500
30
0.000000
0
VERTEX
8
0
10
0.320000
20
-4.410000
30
0.000000
0
VERTEX
8
0
10
0.330000
20
-4.410000
30
0.000000
0
VERTEX
8
0
10
0.337500
20
-4.402500
30
0.000000
0
VERTEX
8
0
10
0.337500
20
-4.395000
30
0.000000
0
VERTEX
8
0
10
0.357500
20
-4.380000
30
0.000000
0
VERTEX
8
0
10
0.360000
20
-4.365000
30
0.000000
0
VERTEX
8
0
10
0.367500
20
-4.370000
30
0.000000
0
VERTEX
8
0
10
0.390000
20
-4.352500
30
0.000000
0
VERTEX
8
0
10
0.425000
20
-4.352500
30
0.000000
0
VERTEX
8
0
10
0.437500
20
-4.342500
30
0.000000
0
VERTEX
8
0
10
0.445000
20
-4.325000
30
0.000000
0
VERTEX
8
0
10
0.457500
20
-4.317500
30
0.000000
0
VERTEX
8
0
10
0.455000
20
-4.307500
30
0.000000
0
VERTEX
8
0
10
0.467500
20
-4.297500
30
0.000000
0
VERTEX
8
0
10
0.470000
20
-4.290000
30
0.000000
0
VERTEX
8
0
10
0.482500
20
-4.282500
30
0.000000
0
VERTEX
8
0
10
0.495000
20
-4.285000
30
0.000000
0
VERTEX
8
0
10
0.505000
20
-4.275000
30
0.000000
0
VERTEX
8
0
10
0.520000
20
-4.270000
30
0.000000
0
VERTEX
8
0
10
0.552500
20
-4.232500
30
0.000000
0
VERTEX
8
0
10
0.570000
20
-4.220000
30
0.000000
0
VERTEX
8
0
10
0.572500
20
-4.210000
30
0.000000
0
VERTEX
8
0
10
0.595000
20
-4.185000
30
0.000000
0
VERTEX
8
0
10
0.597500
20
-4.175000
30
0.000000
0
VERTEX
8
0
10
0.650000
20
-4.127500
30
0.000000
0
VERTEX
8
0
10
0.667500
20
-4.092500
30
0.000000
0
VERTEX
8
0
10
0.675000
20
-4.085000
30
0.000000
0
VERTEX
8
0
10
0.680000
20
-4.070000
30
0.000000
0
VERTEX
8
0
10
0.705000
20
-4.042500
30
0.000000
0
VERTEX
8
0
10
0.710000
20
-4.025000
30
0.000000
0
VERTEX
8
0
10
0.715000
20
-4.022500
30
0.000000
0
VERTEX
8
0
10
0.715000
20
-4.015000
30
0.000000
0
VERTEX
8
0
10
0.740000
20
-3.980000
30
0.000000
0
VERTEX
8
0
10
0.752500
20
-3.975000
30
0.000000
0
VERTEX
8
0
10
0.760000
20
-3.982500
30
0.000000
0
VERTEX
8
0
10
0.760000
20
-4.035000
30
0.000000
0
VERTEX
8
0
10
0.765000
20
-4.062500
30
0.000000
0
VERTEX
8
0
10
0.760000
20
-4.075000
30
0.000000
0
VERTEX
8
0
10
0.762500
20
-4.115000
30
0.000000
0
VERTEX
8
0
10
0.757500
20
-4.127500
30
0.000000
0
VERTEX
8
0
10
0.757500
20
-4.257500
30
0.000000
0
VERTEX
8
0
10
0.762500
20
-4.265000
30
0.000000
0
VERTEX
8
0
10
0.757500
20
-4.280000
30
0.000000
0
VERTEX
8
0
10
0.760000
20
-4.322500
30
0.000000
0
VERTEX
8
0
10
0.750000
20
-4.350000
30
0.000000
0
VERTEX
8
0
10
0.750000
20
-4.362500
30
0.000000
0
VERTEX
8
0
10
0.745000
20
-4.365000
30
0.000000
0
VERTEX
8
0
10
0.717500
20
-4.350000
30
0.000000
0
VERTEX
8
0
10
0.702500
20
-4.350000
30
0.000000
0
VERTEX
8
0
10
0.707500
20
-4.355000
30
0.000000
0
VERTEX
8
0
10
0.707500
20
-4.365000
30
0.000000
0
VERTEX
8
0
10
0.685000
20
-4.355000
30
0.000000
0
VERTEX
8
0
10
0.677500
20
-4.365000
30
0.000000
0
VERTEX
8
0
10
0.662500
20
-4.365000
30
0.000000
0
VERTEX
8
0
10
0.657500
20
-4.375000
30
0.000000
0
VERTEX
8
0
10
0.675000
20
-4.395000
30
0.000000
0
VERTEX
8
0
10
0.682500
20
-4.397500
30
0.000000
0
VERTEX
8
0
10
0.692500
20
-4.412500
30
0.000000
0
VERTEX
8
0
10
0.702500
20
-4.412500
30
0.000000
0
VERTEX
8
0
10
0.705000
20
-4.402500
30
0.000000
0
VERTEX
8
0
10
0.687500
20
-4.382500
30
0.000000
0
VERTEX
8
0
10
0.717500
20
-4.410000
30
0.000000
0
VERTEX
8
0
10
0.720000
20
-4.417500
30
0.000000
0
VERTEX
8
0
10
0.710000
20
-4.412500
30
0.000000
0
VERTEX
8
0
10
0.705000
20
-4.415000
30
0.000000
0
VERTEX
8
0
10
0.707500
20
-4.427500
30
0.000000
0
VERTEX
8
0
10
0.717500
20
-4.437500
30
0.000000
0
VERTEX
8
0
10
0.717500
20
-4.450000
30
0.000000
0
VERTEX
8
0
10
0.712500
20
-4.460000
30
0.000000
0
VERTEX
8
0
10
0.715000
20
-4.477500
30
0.000000
0
VERTEX
8
0
10
0.707500
20
-4.492500
30
0.000000
0
VERTEX
8
0
10
0.710000
20
-4.525000
30
0.000000
0
VERTEX
8
0
10
0.705000
20
-4.530000
30
0.000000
0
VERTEX
8
0
10
0.710000
20
-4.550000
30
0.000000
0
VERTEX
8
0
10
0.717500
20
-4.557500
30
0.000000
0
VERTEX
8
0
10
0.720000
20
-4.580000
30
0.000000
0
VERTEX
8
0
10
0.730000
20
-4.610000
30
0.000000
0
VERTEX
8
0
10
0.747500
20
-4.622500
30
0.000000
0
VERTEX
8
0
10
0.747500
20
-4.627500
30
0.000000
0
VERTEX
8
0
10
0.790000
20
-4.655000
30
0.000000
0
VERTEX
8
0
10
0.822500
20
-4.657500
30
0.000000
0
VERTEX
8
0
10
0.835000
20
-4.665000
30
0.000000
0
VERTEX
8
0
10
0.870000
20
-4.655000
30
0.000000
0
VERTEX
8
0
10
0.887500
20
-4.657500
30
0.000000
0
VERTEX
8
0
10
0.927500
20
-4.642500
30
0.000000
0
VERTEX
8
0
10
0.935000
20
-4.635000
30
0.000000
0
VERTEX
8
0
10
0.935000
20
-4.630000
30
0.000000
0
VERTEX
8
0
10
0.952500
20
-4.615000
30
0.000000
0
VERTEX
8
0
10
0.960000
20
-4.592500
30
0.000000
0
VERTEX
8
0
10
0.960000
20
-4.567500
30
0.000000
0
VERTEX
8
0
10
0.970000
20
-4.545000
30
0.000000
0
VERTEX
8
0
10
0.967500
20
-4.532500
30
0.000000
0
VERTEX
8
0
10
0.982500
20
-4.515000
30
0.000000
0
VERTEX
8
0
10
0.977500
20
-4.505000
30
0.000000
0
VERTEX
8
0
10
0.982500
20
-4.472500
30
0.000000
0
VERTEX
8
0
10
0.982500
20
-4.457500
30
0.000000
0
VERTEX
8
0
10
0.977500
20
-4.447500
30
0.000000
0
VERTEX
8
0
10
0.977500
20
-4.437500
30
0.000000
0
VERTEX
8
0
10
0.982500
20
-4.432500
30
0.000000
0
VERTEX
8
0
10
0.975000
20
-4.345000
30
0.000000
0
VERTEX
8
0
10
0.970000
20
-4.335000
30
0.000000
0
VERTEX
8
0
10
0.970000
20
-4.305000
30
0.000000
0
VERTEX
8
0
10
0.957500
20
-4.270000
30
0.000000
0
VERTEX
8
0
10
0.957500
20
-4.232500
30
0.000000
0
VERTEX
8
0
10
0.962500
20
-4.210000
30
0.000000
0
VERTEX
8
0
10
0.970000
20
-4.200000
30
0.000000
0
VERTEX
8
0
10
0.975000
20
-4.182500
30
0.000000
0
VERTEX
8
0
10
0.972500
20
-4.157500
30
0.000000
0
VERTEX
8
0
10
0.980000
20
-4.150000
30
0.000000
0
VERTEX
8
0
10
0.980000
20
-4.132500
30
0.000000
0
VERTEX
8
0
10
0.985000
20
-4.125000
30
0.000000
0
VERTEX
8
0
10
0.990000
20
-4.090000
30
0.000000
0
VERTEX
8
0
10
0.987500
20
-4.072500
30
0.000000
0
VERTEX
8
0
10
0.997500
20
-4.042500
30
0.000000
0
VERTEX
8
0
10
1.005000
20
-4.040000
30
0.000000
0
VERTEX
8
0
10
1.025000
20
-4.065000
30
0.000000
0
VERTEX
8
0
10
1.042500
20
-4.067500
30
0.000000
0
VERTEX
8
0
10
1.060000
20
-4.077500
30
0.000000
0
VERTEX
8
0
10
1.097500
20
-4.080000
30
0.000000
0
VERTEX
8
0
10
1.112500
20
-4.067500
30
0.000000
0
VERTEX
8
0
10
1.125000
20
-4.077500
30
0.000000
0
VERTEX
8
0
10
1.177500
20
-4.077500
30
0.000000
0
VERTEX
8
0
10
1.200000
20
-4.060000
30
0.000000
0
VERTEX
8
0
10
1.225000
20
-4.032500
30
0.000000
0
VERTEX
8
0
10
1.237500
20
-4.007500
30
0.000000
0
VERTEX
8
0
10
1.237500
20
-3.990000
30
0.000000
0
VERTEX
8
0
10
1.245000
20
-3.980000
30
0.000000
0
VERTEX
8
0
10
1.255000
20
-3.975000
30
0.000000
0
VERTEX
8
0
10
1.257500
20
-3.960000
30
0.000000
0
VERTEX
8
0
10
1.250000
20
-3.945000
30
0.000000
0
VERTEX
8
0
10
1.252500
20
-3.925000
30
0.000000
0
VERTEX
8
0
10
1.242500
20
-3.900000
30
0.000000
0
VERTEX
8
0
10
1.242500
20
-3.880000
30
0.000000
0
VERTEX
8
0
10
1.230000
20
-3.855000
30
0.000000
0
VERTEX
8
0
10
1.217500
20
-3.845000
30
0.000000
0
VERTEX
8
0
10
1.210000
20
-3.830000
30
0.000000
0
VERTEX
8
0
10
1.200000
20
-3.820000
30
0.000000
0
VERTEX
8
0
10
1.187500
20
-3.815000
30
0.000000
0
VERTEX
8
0
10
1.187500
20
-3.807500
30
0.000000
0
VERTEX
8
0
10
1.150000
20
-3.770000
30
0.000000
0
VERTEX
8
0
10
1.150000
20
-3.760000
30
0.000000
0
VERTEX
8
0
10
1.125000
20
-3.742500
30
0.000000
0
VERTEX
8
0
10
1.102500
20
-3.737500
30
0.000000
0
VERTEX
8
0
10
1.057500
20
-3.737500
30
0.000000
0
VERTEX
8
0
10
1.047500
20
-3.732500
30
0.000000
0
VERTEX
8
0
10
1.032500
20
-3.732500
30
0.000000
0
VERTEX
8
0
10
1.017500
20
-3.722500
30
0.000000
0
VERTEX
8
0
10
1.017500
20
-3.650000
30
0.000000
0
VERTEX
8
0
10
1.045000
20
-3.602500
30
0.000000
0
VERTEX
8
0
10
1.067500
20
-3.610000
30
0.000000
0
VERTEX
8
0
10
1.100000
20
-3.597500
30
0.000000
0
VERTEX
8
0
10
1.107500
20
-3.590000
30
0.000000
0
VERTEX
8
0
10
1.110000
20
-3.592500
30
0.000000
0
VERTEX
8
0
10
1.137500
20
-3.585000
30
0.000000
0
VERTEX
8
0
10
1.157500
20
-3.592500
30
0.000000
0
VERTEX
8
0
10
1.177500
20
-3.587500
30
0.000000
0
VERTEX
8
0
10
1.202500
20
-3.570000
30
0.000000
0
VERTEX
8
0
10
1.205000
20
-3.560000
30
0.000000
0
VERTEX
8
0
10
1.225000
20
-3.547500
30
0.000000
0
VERTEX
8
0
10
1.230000
20
-3.527500
30
0.000000
0
VERTEX
8
0
10
1.240000
20
-3.520000
30
0.000000
0
VERTEX
8
0
10
1.247500
20
-3.507500
30
0.000000
0
VERTEX
8
0
10
1.250000
20
-3.470000
30
0.000000
0
VERTEX
8
0
10
1.240000
20
-3.457500
30
0.000000
0
VERTEX
8
0
10
1.227500
20
-3.422500
30
0.000000
0
VERTEX
8
0
10
1.215000
20
-3.410000
30
0.000000
0
VERTEX
8
0
10
1.212500
20
-3.395000
30
0.000000
0
VERTEX
8
0
10
1.175000
20
-3.357500
30
0.000000
0
VERTEX
8
0
10
1.147500
20
-3.342500
30
0.000000
0
VERTEX
8
0
10
1.135000
20
-3.340000
30
0.000000
0
VERTEX
8
0
10
1.125000
20
-3.327500
30
0.000000
0
VERTEX
8
0
10
1.105000
20
-3.322500
30
0.000000
0
VERTEX
8
0
10
1.090000
20
-3.310000
30
0.000000
0
VERTEX
8
0
10
1.077500
20
-3.310000
30
0.000000
0
VERTEX
8
0
10
1.062500
20
-3.297500
30
0.000000
0
VERTEX
8
0
10
1.050000
20
-3.297500
30
0.000000
0
VERTEX
8
0
10
1.040000
20
-3.292500
30
0.000000
0
VERTEX
8
0
10
1.040000
20
-3.287500
30
0.000000
0
VERTEX
8
0
10
1.057500
20
-3.270000
30
0.000000
0
VERTEX
8
0
10
1.072500
20
-3.237500
30
0.000000
0
VERTEX
8
0
10
1.082500
20
-3.230000
30
0.000000
0
VERTEX
8
0
10
1.090000
20
-3.217500
30
0.000000
0
VERTEX
8
0
10
1.090000
20
-3.195000
30
0.000000
0
VERTEX
8
0
10
1.082500
20
-3.165000
30
0.000000
0
VERTEX
8
0
10
1.082500
20
-3.152500
30
0.000000
0
VERTEX
8
0
10
1.087500
20
-3.145000
30
0.000000
0
VERTEX
8
0
10
1.072500
20
-3.117500
30
0.000000
0
VERTEX
8
0
10
1.062500
20
-3.087500
30
0.000000
0
VERTEX
8
0
10
1.015000
20
-3.042500
30
0.000000
0
VERTEX
8
0
10
0.997500
20
-3.035000
30
0.000000
0
VERTEX
8
0
10
0.970000
20
-3.015000
30
0.000000
0
VERTEX
8
0
10
0.955000
20
-3.010000
30
0.000000
0
VERTEX
8
0
10
0.955000
20
-3.000000
30
0.000000
0
VERTEX
8
0
10
0.960000
20
-3.000000
30
0.000000
0
VERTEX
8
0
10
0.967500
20
-3.007500
30
0.000000
0
VERTEX
8
0
10
1.015000
20
-2.997500
30
0.000000
0
VERTEX
8
0
10
1.032500
20
-2.997500
30
0.000000
0
VERTEX
8
0
10
1.057500
20
-3.007500
30
0.000000
0
VERTEX
8
0
10
1.087500
20
-3.007500
30
0.000000
0
VERTEX
8
0
10
1.147500
20
-2.977500
30
0.000000
0
VERTEX
8
0
10
1.175000
20
-2.952500
30
0.000000
0
VERTEX
8
0
10
1.222500
20
-2.920000
30
0.000000
0
VERTEX
8
0
10
1.225000
20
-2.907500
30
0.000000
0
VERTEX
8
0
10
1.247500
20
-2.875000
30
0.000000
0
VERTEX
8
0
10
1.247500
20
-2.840000
30
0.000000
0
VERTEX
8
0
10
1.255000
20
-2.815000
30
0.000000
0
VERTEX
8
0
10
1.247500
20
-2.797500
30
0.000000
0
VERTEX
8
0
10
1.252500
20
-2.775000
30
0.000000
0
VERTEX
8
0
10
1.245000
20
-2.765000
30
0.000000
0
VERTEX
8
0
10
1.240000
20
-2.735000
30
0.000000
0
VERTEX
8
0
10
1.222500
20
-2.707500
30
0.000000
0
VERTEX
8
0
10
1.217500
20
-2.677500
30
0.000000
0
VERTEX
8
0
10
1.200000
20
-2.662500
30
0.000000
0
VERTEX
8
0
10
1.187500
20
-2.640000
30
0.000000
0
VERTEX
8
0
10
1.165000
20
-2.622500
30
0.000000
0
VERTEX
8
0
10
1.152500
20
-2.622500
30
0.000000
0
VERTEX
8
0
10
1.150000
20
-2.602500
30
0.000000
0
VERTEX
8
0
10
1.125000
20
-2.580000
30
0.000000
0
VERTEX
8
0
10
1.107500
20
-2.577500
30
0.000000
0
VERTEX
8
0
10
1.095000
20
-2.565000
30
0.000000
0
VERTEX
8
0
10
1.080000
20
-2.565000
30
0.000000
0
VERTEX
8
0
10
1.055000
20
-2.552500
30
0.000000
0
VERTEX
8
0
10
1.050000
20
-2.557500
30
0.000000
0
VERTEX
8
0
10
1.040000
20
-2.552500
30
0.000000
0
VERTEX
8
0
10
1.030000
20
-2.555000
30
0.000000
0
VERTEX
8
0
10
1.025000
20
-2.547500
30
0.000000
0
VERTEX
8
0
10
1.020000
20
-2.550000
30
0.000000
0
VERTEX
8
0
10
1.007500
20
-2.542500
30
0.000000
0
SEQEND
0
POLYLINE
8
0
6
CONTINUOUS
66
1
10
0.0
20
0.0
30
0.000000
0
VERTEX
8
0
10
1.337500
20
-2.592500
30
0.000000
0
VERTEX
8
0
10
1.335000
20
-2.590000
30
0.000000
0
VERTEX
8
0
10
1.325000
20
-2.595000
30
0.000000
0
VERTEX
8
0
10
1.332500
20
-2.600000
30
0.000000
0
VERTEX
8
0
10
1.337500
20
-2.592500
30
0.000000
0
SEQEND
0
POLYLINE
8
0
6
CONTINUOUS
66
1
10
0.0
20
0.0
30
0.000000
0
VERTEX
8
0
10
0.507500
20
-3.160000
30
0.000000
0
VERTEX
8
0
10
0.505000
20
-3.157500
30
0.000000
0
VERTEX
8
0
10
0.495000
20
-3.160000
30
0.000000
0
VERTEX
8
0
10
0.490000
20
-3.165000
30
0.000000
0
VERTEX
8
0
10
0.490000
20
-3.170000
30
0.000000
0
VERTEX
8
0
10
0.497500
20
-3.172500
30
0.000000
0
VERTEX
8
0
10
0.507500
20
-3.160000
30
0.000000
0
SEQEND
0
POLYLINE
8
0
6
CONTINUOUS
66
1
10
0.0
20
0.0
30
0.000000
0
VERTEX
8
0
10
2.062500
20
-3.287500
30
0.000000
0
VERTEX
8
0
10
2.057500
20
-3.285000
30
0.000000
0
VERTEX
8
0
10
2.042500
20
-3.290000
30
0.000000
0
VERTEX
8
0
10
2.010000
20
-3.290000
30
0.000000
0
VERTEX
8
0
10
2.000000
20
-3.295000
30
0.000000
0
VERTEX
8
0
10
1.982500
20
-3.292500
30
0.000000
0
VERTEX
8
0
10
1.972500
20
-3.297500
30
0.000000
0
VERTEX
8
0
10
1.967500
20
-3.295000
30
0.000000
0
VERTEX
8
0
10
1.925000
20
-3.302500
30
0.000000
0
VERTEX
8
0
10
1.847500
20
-3.305000
30
0.000000
0
VERTEX
8
0
10
1.840000
20
-3.312500
30
0.000000
0
VERTEX
8
0
10
1.825000
20
-3.312500
30
0.000000
0
VERTEX
8
0
10
1.795000
20
-3.322500
30
0.000000
0
VERTEX
8
0
10
1.777500
20
-3.322500
30
0.000000
0
VERTEX
8
0
10
1.760000
20
-3.330000
30
0.000000
0
VERTEX
8
0
10
1.722500
20
-3.332500
30
0.000000
0
VERTEX
8
0
10
1.685000
20
-3.345000
30
0.000000
0
VERTEX
8
0
10
1.670000
20
-3.345000
30
0.000000
0
VERTEX
8
0
10
1.655000
20
-3.355000
30
0.000000
0
VERTEX
8
0
10
1.635000
20
-3.357500
30
0.000000
0
VERTEX
8
0
10
1.600000
20
-3.377500
30
0.000000
0
VERTEX
8
0
10
1.597500
20
-3.392500
30
0.000000
0
VERTEX
8
0
10
1.590000
20
-3.400000
30
0.000000
0
VERTEX
8
0
10
1.592500
20
-3.417500
30
0.000000
0
VERTEX
8
0
10
1.582500
20
-3.427500
30
0.000000
0
VERTEX
8
0
10
1.582500
20
-3.435000
30
0.000000
0
VERTEX
8
0
10
1.572500
20
-3.452500
30
0.000000
0
VERTEX
8
0
10
1.562500
20
-3.452500
30
0.000000
0
VERTEX
8
0
10
1.525000
20
-3.417500
30
0.000000
0
VERTEX
8
0
10
1.492500
20
-3.400000
30
0.000000
0
VERTEX
8
0
10
1.477500
20
-3.400000
30
0.000000
0
VERTEX
8
0
10
1.467500
20
-3.390000
30
0.000000
0
VERTEX
8
0
10
1.450000
20
-3.390000
30
0.000000
0
VERTEX
8
0
10
1.420000
20
-3.397500
30
0.000000
0
VERTEX
8
0
10
1.392500
20
-3.417500
30
0.000000
0
VERTEX
8
0
10
1.375000
20
-3.420000
30
0.000000
0
VERTEX
8
0
10
1.370000
20
-3.432500
30
0.000000
0
VERTEX
8
0
10
1.355000
20
-3.442500
30
0.000000
0
VERTEX
8
0
10
1.355000
20
-3.450000
30
0.000000
0
VERTEX
8
0
10
1.345000
20
-3.462500
30
0.000000
0
VERTEX
8
0
10
1.340000
20
-3.482500
30
0.000000
0
VERTEX
8
0
10
1.340000
20
-3.510000
30
0.000000
0
VERTEX
8
0
10
1.355000
20
-3.540000
30
0.000000
0
VERTEX
8
0
10
1.352500
20
-3.560000
30
0.000000
0
VERTEX
8
0
10
1.367500
20
-3.590000
30
0.000000
0
VERTEX
8
0
10
1.365000
20
-3.607500
30
0.000000
0
VERTEX
8
0
10
1.372500
20
-3.617500
30
0.000000
0
VERTEX
8
0
10
1.367500
20
-3.625000
30
0.000000
0
VERTEX
8
0
10
1.365000
20
-3.657500
30
0.000000
0
VERTEX
8
0
10
1.370000
20
-3.662500
30
0.000000
0
VERTEX
8
0
10
1.367500
20
-3.682500
30
0.000000
0
VERTEX
8
0
10
1.372500
20
-3.690000
30
0.000000
0
VERTEX
8
0
10
1.372500
20
-3.727500
30
0.000000
0
VERTEX
8
0
10
1.377500
20
-3.735000
30
0.000000
0
VERTEX
8
0
10
1.377500
20
-3.800000
30
0.000000
0
VERTEX
8
0
10
1.372500
20
-3.830000
30
0.000000
0
VERTEX
8
0
10
1.372500
20
-3.837500
30
0.000000
0
VERTEX
8
0
10
1.377500
20
-3.842500
30
0.000000
0
VERTEX
8
0
10
1.372500
20
-3.872500
30
0.000000
0
VERTEX
8
0
10
1.377500
20
-3.880000
30
0.000000
0
VERTEX
8
0
10
1.375000
20
-3.905000
30
0.000000
0
VERTEX
8
0
10
1.380000
20
-3.912500
30
0.000000
0
VERTEX
8
0
10
1.380000
20
-3.930000
30
0.000000
0
VERTEX
8
0
10
1.375000
20
-3.940000
30
0.000000
0
VERTEX
8
0
10
1.380000
20
-3.965000
30
0.000000
0
VERTEX
8
0
10
1.380000
20
-4.015000
30
0.000000
0
VERTEX
8
0
10
1.385000
20
-4.040000
30
0.000000
0
VERTEX
8
0
10
1.392500
20
-4.052500
30
0.000000
0
VERTEX
8
0
10
1.397500
20
-4.097500
30
0.000000
0
VERTEX
8
0
10
1.397500
20
-4.150000
30
0.000000
0
VERTEX
8
0
10
1.392500
20
-4.187500
30
0.000000
0
VERTEX
8
0
10
1.402500
20
-4.200000
30
0.000000
0
VERTEX
8
0
10
1.402500
20
-4.207500
30
0.000000
0
VERTEX
8
0
10
1.412500
20
-4.217500
30
0.000000
0
VERTEX
8
0
10
1.417500
20
-4.247500
30
0.000000
0
VERTEX
8
0
10
1.415000
20
-4.252500
30
0.000000
0
VERTEX
8
0
10
1.425000
20
-4.265000
30
0.000000
0
VERTEX
8
0
10
1.427500
20
-4.282500
30
0.000000
0
VERTEX
8
0
10
1.440000
20
-4.297500
30
0.000000
0
VERTEX
8
0
10
1.462500
20
-4.357500
30
0.000000
0
VERTEX
8
0
10
1.472500
20
-4.367500
30
0.000000
0
VERTEX
8
0
10
1.472500
20
-4.380000
30
0.000000
0
VERTEX
8
0
10
1.480000
20
-4.395000
30
0.000000
0
VERTEX
8
0
10
1.512500
20
-4.430000
30
0.000000
0
VERTEX
8
0
10
1.540000
20
-4.447500
30
0.000000
0
VERTEX
8
0
10
1.555000
20
-4.452500
30
0.000000
0
VERTEX
8
0
10
1.580000
20
-4.452500
30
0.000000
0
VERTEX
8
0
10
1.592500
20
-4.457500
30
0.000000
0
VERTEX
8
0
10
1.597500
20
-4.452500
30
0.000000
0
VERTEX
8
0
10
1.622500
20
-4.450000
30
0.000000
0
VERTEX
8
0
10
1.652500
20
-4.435000
30
0.000000
0
VERTEX
8
0
10
1.685000
20
-4.405000
30
0.000000
0
VERTEX
8
0
10
1.692500
20
-4.390000
30
0.000000
0
VERTEX
8
0
10
1.697500
20
-4.370000
30
0.000000
0
VERTEX
8
0
10
1.707500
20
-4.360000
30
0.000000
0
VERTEX
8
0
10
1.717500
20
-4.320000
30
0.000000
0
VERTEX
8
0
10
1.730000
20
-4.317500
30
0.000000
0
VERTEX
8
0
10
1.745000
20
-4.327500
30
0.000000
0
VERTEX
8
0
10
1.757500
20
-4.332500
30
0.000000
0
VERTEX
8
0
10
1.802500
20
-4.325000
30
0.000000
0
VERTEX
8
0
10
1.810000
20
-4.317500
30
0.000000
0
VERTEX
8
0
10
1.827500
20
-4.310000
30
0.000000
0
VERTEX
8
0
10
1.845000
20
-4.310000
30
0.000000
0
VERTEX
8
0
10
1.852500
20
-4.305000
30
0.000000
0
VERTEX
8
0
10
1.880000
20
-4.305000
30
0.000000
0
VERTEX
8
0
10
1.890000
20
-4.297500
30
0.000000
0
VERTEX
8
0
10
1.915000
20
-4.292500
30
0.000000
0
VERTEX
8
0
10
1.977500
20
-4.297500
30
0.000000
0
VERTEX
8
0
10
2.010000
20
-4.295000
30
0.000000
0
VERTEX
8
0
10
2.020000
20
-4.300000
30
0.000000
0
VERTEX
8
0
10
2.057500
20
-4.302500
30
0.000000
0
VERTEX
8
0
10
2.077500
20
-4.312500
30
0.000000
0
VERTEX
8
0
10
2.080000
20
-4.310000
30
0.000000
0
VERTEX
8
0
10
2.095000
20
-4.315000
30
0.000000
0
VERTEX
8
0
10
2.102500
20
-4.327500
30
0.000000
0
VERTEX
8
0
10
2.115000
20
-4.335000
30
0.000000
0
VERTEX
8
0
10
2.140000
20
-4.380000
30
0.000000
0
VERTEX
8
0
10
2.160000
20
-4.400000
30
0.000000
0
VERTEX
8
0
10
2.180000
20
-4.410000
30
0.000000
0
VERTEX
8
0
10
2.210000
20
-4.410000
30
0.000000
0
VERTEX
8
0
10
2.242500
20
-4.405000
30
0.000000
0
VERTEX
8
0
10
2.297500
20
-4.375000
30
0.000000
0
VERTEX
8
0
10
2.320000
20
-4.347500
30
0.000000
0
VERTEX
8
0
10
2.320000
20
-4.332500
30
0.000000
0
VERTEX
8
0
10
2.327500
20
-4.315000
30
0.000000
0
VERTEX
8
0
10
2.327500
20
-4.282500
30
0.000000
0
VERTEX
8
0
10
2.317500
20
-4.240000
30
0.000000
0
VERTEX
8
0
10
2.317500
20
-4.210000
30
0.000000
0
VERTEX
8
0
10
2.310000
20
-4.202500
30
0.000000
0
VERTEX
8
0
10
2.297500
20
-4.172500
30
0.000000
0
VERTEX
8
0
10
2.277500
20
-4.145000
30
0.000000
0
VERTEX
8
0
10
2.272500
20
-4.117500
30
0.000000
0
VERTEX
8
0
10
2.247500
20
-4.082500
30
0.000000
0
VERTEX
8
0
10
2.240000
20
-4.062500
30
0.000000
0
VERTEX
8
0
10
2.255000
20
-4.052500
30
0.000000
0
VERTEX
8
0
10
2.307500
20
-3.997500
30
0.000000
0
VERTEX
8
0
10
2.312500
20
-3.982500
30
0.000000
0
VERTEX
8
0
10
2.330000
20
-3.965000
30
0.000000
0
VERTEX
8
0
10
2.330000
20
-3.957500
30
0.000000
0
VERTEX
8
0
10
2.360000
20
-3.917500
30
0.000000
0
VERTEX
8
0
10
2.370000
20
-3.907500
30
0.000000
0
VERTEX
8
0
10
2.392500
20
-3.897500
30
0.000000
0
VERTEX
8
0
10
2.410000
20
-3.880000
30
0.000000
0
VERTEX
8
0
10
2.420000
20
-3.862500
30
0.000000
0
VERTEX
8
0
10
2.430000
20
-3.855000
30
0.000000
0
VERTEX
8
0
10
2.435000
20
-3.842500
30
0.000000
0
VERTEX
8
0
10
2.475000
20
-3.802500
30
0.000000
0
VERTEX
8
0
10
2.480000
20
-3.802500
30
0.000000
0
VERTEX
8
0
10
2.490000
20
-3.787500
30
0.000000
0
VERTEX
8
0
10
2.580000
20
-3.757500
30
0.000000
0
VERTEX
8
0
10
2.605000
20
-3.735000
30
0.000000
0
VERTEX
8
0
10
2.605000
20
-3.730000
30
0.000000
0
VERTEX
8
0
10
2.622500
20
-3.710000
30
0.000000
0
VERTEX
8
0
10
2.637500
20
-3.670000
30
0.000000
0
VERTEX
8
0
10
2.635000
20
-3.632500
30
0.000000
0
VERTEX
8
0
10
2.622500
20
-3.612500
30
0.000000
0
VERTEX
8
0
10
2.622500
20
-3.602500
30
0.000000
0
VERTEX
8
0
10
2.627500
20
-3.597500
30
0.000000
0
VERTEX
8
0
10
2.597500
20
-3.557500
30
0.000000
0
VERTEX
8
0
10
2.595000
20
-3.545000
30
0.000000
0
VERTEX
8
0
10
2.587500
20
-3.537500
30
0.000000
0
VERTEX
8
0
10
2.585000
20
-3.517500
30
0.000000
0
VERTEX
8
0
10
2.565000
20
-3.497500
30
0.000000
0
VERTEX
8
0
10
2.562500
20
-3.485000
30
0.000000
0
VERTEX
8
0
10
2.547500
20
-3.460000
30
0.000000
0
VERTEX
8
0
10
2.510000
20
-3.430000
30
0.000000
0
VERTEX
8
0
10
2.487500
20
-3.390000
30
0.000000
0
VERTEX
8
0
10
2.447500
20
-3.350000
30
0.000000
0
VERTEX
8
0
10
2.437500
20
-3.350000
30
0.000000
0
VERTEX
8
0
10
2.417500
20
-3.337500
30
0.000000
0
VERTEX
8
0
10
2.407500
20
-3.340000
30
0.000000
0
VERTEX
8
0
10
2.382500
20
-3.330000
30
0.000000
0
VERTEX
8
0
10
2.350000
20
-3.330000
30
0.000000
0
VERTEX
8
0
10
2.337500
20
-3.322500
30
0.000000
0
VERTEX
8
0
10
2.322500
20
-3.322500
30
0.000000
0
VERTEX
8
0
10
2.310000
20
-3.312500
30
0.000000
0
VERTEX
8
0
10
2.282500
20
-3.312500
30
0.000000
0
VERTEX
8
0
10
2.252500
20
-3.302500
30
0.000000
0
VERTEX
8
0
10
2.217500
20
-3.300000
30
0.000000
0
VERTEX
8
0
10
2.212500
20
-3.295000
30
0.000000
0
VERTEX
8
0
10
2.165000
20
-3.292500
30
0.000000
0
VERTEX
8
0
10
2.157500
20
-3.287500
30
0.000000
0
VERTEX
8
0
10
2.062500
20
-3.287500
30
0.000000
0
SEQEND
0
POLYLINE
8
0
6
CONTINUOUS
66
1
10
0.0
20
0.0
30
0.000000
0
VERTEX
8
0
10
2.057500
20
-3.520000
30
0.000000
0
VERTEX
8
0
10
2.077500
20
-3.520000
30
0.000000
0
VERTEX
8
0
10
2.080000
20
-3.517500
30
0.000000
0
VERTEX
8
0
10
2.092500
20
-3.522500
30
0.000000
0
VERTEX
8
0
10
2.110000
20
-3.520000
30
0.000000
0
VERTEX
8
0
10
2.137500
20
-3.522500
30
0.000000
0
VERTEX
8
0
10
2.145000
20
-3.527500
30
0.000000
0
VERTEX
8
0
10
2.205000
20
-3.527500
30
0.000000
0
VERTEX
8
0
10
2.227500
20
-3.532500
30
0.000000
0
VERTEX
8
0
10
2.275000
20
-3.555000
30
0.000000
0
VERTEX
8
0
10
2.290000
20
-3.572500
30
0.000000
0
VERTEX
8
0
10
2.290000
20
-3.587500
30
0.000000
0
VERTEX
8
0
10
2.242500
20
-3.670000
30
0.000000
0
VERTEX
8
0
10
2.242500
20
-3.680000
30
0.000000
0
VERTEX
8
0
10
2.220000
20
-3.722500
30
0.000000
0
VERTEX
8
0
10
2.220000
20
-3.732500
30
0.000000
0
VERTEX
8
0
10
2.212500
20
-3.740000
30
0.000000
0
VERTEX
8
0
10
2.212500
20
-3.752500
30
0.000000
0
VERTEX
8
0
10
2.182500
20
-3.797500
30
0.000000
0
VERTEX
8
0
10
2.170000
20
-3.820000
30
0.000000
0
VERTEX
8
0
10
2.170000
20
-3.827500
30
0.000000
0
VERTEX
8
0
10
2.135000
20
-3.882500
30
0.000000
0
VERTEX
8
0
10
2.125000
20
-3.902500
30
0.000000
0
VERTEX
8
0
10
2.125000
20
-3.910000
30
0.000000
0
VERTEX
8
0
10
2.107500
20
-3.932500
30
0.000000
0
VERTEX
8
0
10
2.107500
20
-3.947500
30
0.000000
0
VERTEX
8
0
10
2.095000
20
-3.967500
30
0.000000
0
VERTEX
8
0
10
2.077500
20
-3.972500
30
0.000000
0
VERTEX
8
0
10
2.070000
20
-3.980000
30
0.000000
0
VERTEX
8
0
10
2.072500
20
-3.990000
30
0.000000
0
VERTEX
8
0
10
2.055000
20
-4.007500
30
0.000000
0
VERTEX
8
0
10
2.050000
20
-4.030000
30
0.000000
0
VERTEX
8
0
10
2.032500
20
-4.042500
30
0.000000
0
VERTEX
8
0
10
2.020000
20
-4.042500
30
0.000000
0
VERTEX
8
0
10
2.015000
20
-4.037500
30
0.000000
0
VERTEX
8
0
10
2.007500
20
-4.042500
30
0.000000
0
VERTEX
8
0
10
1.932500
20
-4.045000
30
0.000000
0
VERTEX
8
0
10
1.917500
20
-4.037500
30
0.000000
0
VERTEX
8
0
10
1.870000
20
-4.047500
30
0.000000
0
VERTEX
8
0
10
1.840000
20
-4.047500
30
0.000000
0
VERTEX
8
0
10
1.737500
20
-4.062500
30
0.000000
0
VERTEX
8
0
10
1.707500
20
-4.062500
30
0.000000
0
VERTEX
8
0
10
1.700000
20
-4.067500
30
0.000000
0
VERTEX
8
0
10
1.650000
20
-4.065000
30
0.000000
0
VERTEX
8
0
10
1.637500
20
-4.052500
30
0.000000
0
VERTEX
8
0
10
1.637500
20
-4.035000
30
0.000000
0
VERTEX
8
0
10
1.630000
20
-4.022500
30
0.000000
0
VERTEX
8
0
10
1.630000
20
-4.010000
30
0.000000
0
VERTEX
8
0
10
1.620000
20
-4.000000
30
0.000000
0
VERTEX
8
0
10
1.625000
20
-3.995000
30
0.000000
0
VERTEX
8
0
10
1.625000
20
-3.970000
30
0.000000
0
VERTEX
8
0
10
1.617500
20
-3.945000
30
0.000000
0
VERTEX
8
0
10
1.617500
20
-3.912500
30
0.000000
0
VERTEX
8
0
10
1.612500
20
-3.882500
30
0.000000
0
VERTEX
8
0
10
1.615000
20
-3.860000
30
0.000000
0
VERTEX
8
0
10
1.607500
20
-3.845000
30
0.000000
0
VERTEX
8
0
10
1.612500
20
-3.837500
30
0.000000
0
VERTEX
8
0
10
1.610000
20
-3.815000
30
0.000000
0
VERTEX
8
0
10
1.615000
20
-3.805000
30
0.000000
0
VERTEX
8
0
10
1.615000
20
-3.787500
30
0.000000
0
VERTEX
8
0
10
1.620000
20
-3.782500
30
0.000000
0
VERTEX
8
0
10
1.625000
20
-3.752500
30
0.000000
0
VERTEX
8
0
10
1.642500
20
-3.732500
30
0.000000
0
VERTEX
8
0
10
1.642500
20
-3.725000
30
0.000000
0
VERTEX
8
0
10
1.652500
20
-3.707500
30
0.000000
0
VERTEX
8
0
10
1.652500
20
-3.685000
30
0.000000
0
VERTEX
8
0
10
1.662500
20
-3.662500
30
0.000000
0
VERTEX
8
0
10
1.665000
20
-3.640000
30
0.000000
0
VERTEX
8
0
10
1.660000
20
-3.625000
30
0.000000
0
VERTEX
8
0
10
1.665000
20
-3.620000
30
0.000000
0
VERTEX
8
0
10
1.662500
20
-3.602500
30
0.000000
0
VERTEX
8
0
10
1.657500
20
-3.595000
30
0.000000
0
VERTEX
8
0
10
1.670000
20
-3.595000
30
0.000000
0
VERTEX
8
0
10
1.682500
20
-3.605000
30
0.000000
0
VERTEX
8
0
10
1.690000
20
-3.605000
30
0.000000
0
VERTEX
8
0
10
1.717500
20
-3.622500
30
0.000000
0
VERTEX
8
0
10
1.737500
20
-3.625000
30
0.000000
0
VERTEX
8
0
10
1.750000
20
-3.632500
30
0.000000
0
VERTEX
8
0
10
1.795000
20
-3.632500
30
0.000000
0
VERTEX
8
0
10
1.822500
20
-3.625000
30
0.000000
0
VERTEX
8
0
10
1.865000
20
-3.602500
30
0.000000
0
VERTEX
8
0
10
1.907500
20
-3.572500
30
0.000000
0
VERTEX
8
0
10
1.932500
20
-3.547500
30
0.000000
0
VERTEX
8
0
10
1.965000
20
-3.530000
30
0.000000
0
VERTEX
8
0
10
1.985000
20
-3.530000
30
0.000000
0
VERTEX
8
0
10
2.002500
20
-3.522500
30
0.000000
0
VERTEX
8
0
10
2.057500
20
-3.520000
30
0.000000
0
SEQEND
0
POLYLINE
8
0
6
CONTINUOUS
66
1
10
0.0
20
0.0
30
0.000000
0
VERTEX
8
0
10
2.097500
20
-3.945000
30
0.000000
0
VERTEX
8
0
10
2.095000
20
-3.942500
30
0.000000
0
VERTEX
8
0
10
2.082500
20
-3.950000
30
0.000000
0
VERTEX
8
0
10
2.092500
20
-3.952500
30
0.000000
0
VERTEX
8
0
10
2.097500
20
-3.945000
30
0.000000
0
SEQEND
0
POLYLINE
8
0
6
CONTINUOUS
66
1
10
0.0
20
0.0
30
0.000000
0
VERTEX
8
0
10
1.950000
20
-4.027500
30
0.000000
0
VERTEX
8
0
10
1.947500
20
-4.025000
30
0.000000
0
VERTEX
8
0
10
1.932500
20
-4.030000
30
0.000000
0
VERTEX
8
0
10
1.927500
20
-4.040000
30
0.000000
0
VERTEX
8
0
10
1.932500
20
-4.042500
30
0.000000
0
VERTEX
8
0
10
1.950000
20
-4.027500
30
0.000000
0
SEQEND
0
POLYLINE
8
0
6
CONTINUOUS
66
1
10
0.0
20
0.0
30
0.000000
0
VERTEX
8
0
10
2.037500
20
-4.027500
30
0.000000
0
VERTEX
8
0
10
2.035000
20
-4.025000
30
0.000000
0
VERTEX
8
0
10
2.030000
20
-4.030000
30
0.000000
0
VERTEX
8
0
10
2.037500
20
-4.032500
30
0.000000
0
VERTEX
8
0
10
2.037500
20
-4.027500
30
0.000000
0
SEQEND
0
POLYLINE
8
0
6
CONTINUOUS
66
1
10
0.0
20
0.0
30
0.000000
0
VERTEX
8
0
10
0.230000
20
-4.252500
30
0.000000
0
VERTEX
8
0
10
0.227500
20
-4.250000
30
0.000000
0
VERTEX
8
0
10
0.215000
20
-4.250000
30
0.000000
0
VERTEX
8
0
10
0.202500
20
-4.265000
30
0.000000
0
VERTEX
8
0
10
0.187500
20
-4.275000
30
0.000000
0
VERTEX
8
0
10
0.190000
20
-4.280000
30
0.000000
0
VERTEX
8
0
10
0.182500
20
-4.292500
30
0.000000
0
VERTEX
8
0
10
0.187500
20
-4.297500
30
0.000000
0
VERTEX
8
0
10
0.195000
20
-4.292500
30
0.000000
0
VERTEX
8
0
10
0.197500
20
-4.295000
30
0.000000
0
VERTEX
8
0
10
0.187500
20
-4.305000
30
0.000000
0
VERTEX
8
0
10
0.192500
20
-4.312500
30
0.000000
0
VERTEX
8
0
10
0.210000
20
-4.310000
30
0.000000
0
VERTEX
8
0
10
0.217500
20
-4.297500
30
0.000000
0
VERTEX
8
0
10
0.237500
20
-4.282500
30
0.000000
0
VERTEX
8
0
10
0.235000
20
-4.277500
30
0.000000
0
VERTEX
8
0
10
0.222500
20
-4.275000
30
0.000000
0
VERTEX
8
0
10
0.232500
20
-4.257500
30
0.000000
0
VERTEX
8
0
10
0.230000
20
-4.252500
30
0.000000
0
SEQEND
0
POLYLINE
8
0
6
CONTINUOUS
66
1
10
0.0
20
0.0
30
0.000000
0
VERTEX
8
0
10
0.477500
20
-4.297500
30
0.000000
0
VERTEX
8
0
10
0.472500
20
-4.295000
30
0.000000
0
VERTEX
8
0
10
0.467500
20
-4.300000
30
0.000000
0
VERTEX
8
0
10
0.472500
20
-4.305000
30
0.000000
0
VERTEX
8
0
10
0.477500
20
-4.297500
30
0.000000
0
SEQEND
0
POLYLINE
8
0
6
CONTINUOUS
66
1
10
0.0
20
0.0
30
0.000000
0
VERTEX
8
0
10
0.425000
20
-4.322500
30
0.000000
0
VERTEX
8
0
10
0.440000
20
-4.322500
30
0.000000
0
VERTEX
8
0
10
0.425000
20
-4.335000
30
0.000000
0
VERTEX
8
0
10
0.420000
20
-4.335000
30
0.000000
0
VERTEX
8
0
10
0.415000
20
-4.327500
30
0.000000
0
VERTEX
8
0
10
0.425000
20
-4.322500
30
0.000000
0
SEQEND
0
POLYLINE
8
0
6
CONTINUOUS
66
1
10
0.0
20
0.0
30
0.000000
0
VERTEX
8
0
10
0.157500
20
-4.325000
30
0.000000
0
VERTEX
8
0
10
0.155000
20
-4.322500
30
0.000000
0
VERTEX
8
0
10
0.145000
20
-4.322500
30
0.000000
0
VERTEX
8
0
10
0.142500
20
-4.327500
30
0.000000
0
VERTEX
8
0
10
0.135000
20
-4.327500
30
0.000000
0
VERTEX
8
0
10
0.127500
20
-4.335000
30
0.000000
0
VERTEX
8
0
10
0.127500
20
-4.340000
30
0.000000
0
VERTEX
8
0
10
0.135000
20
-4.342500
30
0.000000
0
VERTEX
8
0
10
0.137500
20
-4.350000
30
0.000000
0
VERTEX
8
0
10
0.150000
20
-4.355000
30
0.000000
0
VERTEX
8
0
10
0.157500
20
-4.347500
30
0.000000
0
VERTEX
8
0
10
0.170000
20
-4.345000
30
0.000000
0
VERTEX
8
0
10
0.175000
20
-4.340000
30
0.000000
0
VERTEX
8
0
10
0.192500
20
-4.342500
30
0.000000
0
VERTEX
8
0
10
0.205000
20
-4.330000
30
0.000000
0
VERTEX
8
0
10
0.190000
20
-4.325000
30
0.000000
0
VERTEX
8
0
10
0.180000
20
-4.332500
30
0.000000
0
VERTEX
8
0
10
0.170000
20
-4.332500
30
0.000000
0
VERTEX
8
0
10
0.157500
20
-4.325000
30
0.000000
0
SEQEND
0
POLYLINE
8
0
6
CONTINUOUS
66
1
10
0.0
20
0.0
30
0.000000
0
VERTEX
8
0
10
0.122500
20
-4.332500
30
0.000000
0
VERTEX
8
0
10
0.120000
20
-4.330000
30
0.000000
0
VERTEX
8
0
10
0.092500
20
-4.335000
30
0.000000
0
VERTEX
8
0
10
0.087500
20
-4.345000
30
0.000000
0
VERTEX
8
0
10
0.097500
20
-4.352500
30
0.000000
0
VERTEX
8
0
10
0.107500
20
-4.352500
30
0.000000
0
VERTEX
8
0
10
0.107500
20
-4.357500
30
0.000000
0
VERTEX
8
0
10
0.097500
20
-4.365000
30
0.000000
0
VERTEX
8
0
10
0.097500
20
-4.382500
30
0.000000
0
VERTEX
8
0
10
0.090000
20
-4.390000
30
0.000000
0
VERTEX
8
0
10
0.092500
20
-4.400000
30
0.000000
0
VERTEX
8
0
10
0.112500
20
-4.425000
30
0.000000
0
VERTEX
8
0
10
0.162500
20
-4.422500
30
0.000000
0
VERTEX
8
0
10
0.205000
20
-4.400000
30
0.000000
0
VERTEX
8
0
10
0.205000
20
-4.395000
30
0.000000
0
VERTEX
8
0
10
0.192500
20
-4.395000
30
0.000000
0
VERTEX
8
0
10
0.217500
20
-4.377500
30
0.000000
0
VERTEX
8
0
10
0.225000
20
-4.370000
30
0.000000
0
VERTEX
8
0
10
0.222500
20
-4.362500
30
0.000000
0
VERTEX
8
0
10
0.207500
20
-4.365000
30
0.000000
0
VERTEX
8
0
10
0.185000
20
-4.357500
30
0.000000
0
VERTEX
8
0
10
0.177500
20
-4.357500
30
0.000000
0
VERTEX
8
0
10
0.175000
20
-4.362500
30
0.000000
0
VERTEX
8
0
10
0.165000
20
-4.360000
30
0.000000
0
VERTEX
8
0
10
0.150000
20
-4.365000
30
0.000000
0
VERTEX
8
0
10
0.142500
20
-4.365000
30
0.000000
0
VERTEX
8
0
10
0.132500
20
-4.357500
30
0.000000
0
VERTEX
8
0
10
0.122500
20
-4.360000
30
0.000000
0
VERTEX
8
0
10
0.115000
20
-4.350000
30
0.000000
0
VERTEX
8
0
10
0.120000
20
-4.345000
30
0.000000
0
VERTEX
8
0
10
0.122500
20
-4.332500
30
0.000000
0
SEQEND
0
POLYLINE
8
0
6
CONTINUOUS
66
1
10
0.0
20
0.0
30
0.000000
0
VERTEX
8
0
10
0.240000
20
-4.367500
30
0.000000
0
VERTEX
8
0
10
0.235000
20
-4.365000
30
0.000000
0
VERTEX
8
0
10
0.230000
20
-4.370000
30
0.000000
0
VERTEX
8
0
10
0.232500
20
-4.380000
30
0.000000
0
VERTEX
8
0
10
0.225000
20
-4.385000
30
0.000000
0
VERTEX
8
0
10
0.227500
20
-4.392500
30
0.000000
0
VERTEX
8
0
10
0.257500
20
-4.380000
30
0.000000
0
VERTEX
8
0
10
0.245000
20
-4.375000
30
0.000000
0
VERTEX
8
0
10
0.240000
20
-4.367500
30
0.000000
0
SEQEND
0
POLYLINE
8
0
6
CONTINUOUS
66
1
10
0.0
20
0.0
30
0.000000
0
VERTEX
8
0
10
0.252500
20
-4.370000
30
0.000000
0
VERTEX
8
0
10
0.250000
20
-4.367500
30
0.000000
0
VERTEX
8
0
10
0.250000
20
-4.372500
30
0.000000
0
VERTEX
8
0
10
0.252500
20
-4.370000
30
0.000000
0
SEQEND
0
POLYLINE
8
0
6
CONTINUOUS
66
1
10
0.0
20
0.0
30
0.000000
0
VERTEX
8
0
10
0.275000
20
-4.372500
30
0.000000
0
VERTEX
8
0
10
0.272500
20
-4.370000
30
0.000000
0
VERTEX
8
0
10
0.272500
20
-4.375000
30
0.000000
0
VERTEX
8
0
10
0.275000
20
-4.372500
30
0.000000
0
SEQEND
0
POLYLINE
8
0
6
CONTINUOUS
66
1
10
0.0
20
0.0
30
0.000000
0
VERTEX
8
0
10
0.197500
20
-4.422500
30
0.000000
0
VERTEX
8
0
10
0.195000
20
-4.417500
30
0.000000
0
VERTEX
8
0
10
0.187500
20
-4.417500
30
0.000000
0
VERTEX
8
0
10
0.187500
20
-4.427500
30
0.000000
0
VERTEX
8
0
10
0.197500
20
-4.422500
30
0.000000
0
SEQEND
0
POLYLINE
8
0
6
CONTINUOUS
66
1
10
0.0
20
0.0
30
0.000000
0
VERTEX
8
0
10
0.135000
20
-4.427500
30
0.000000
0
VERTEX
8
0
10
0.132500
20
-4.425000
30
0.000000
0
VERTEX
8
0
10
0.132500
20
-4.430000
30
0.000000
0
VERTEX
8
0
10
0.135000
20
-4.427500
30
0.000000
0
SEQEND
0
POLYLINE
8
0
6
CONTINUOUS
66
1
10
0.0
20
0.0
30
0.000000
0
VERTEX
8
0
10
0.122500
20
-4.430000
30
0.000000
0
VERTEX
8
0
10
0.120000
20
-4.427500
30
0.000000
0
VERTEX
8
0
10
0.112500
20
-4.435000
30
0.000000
0
VERTEX
8
0
10
0.120000
20
-4.437500
30
0.000000
0
VERTEX
8
0
10
0.125000
20
-4.432500
30
0.000000
0
VERTEX
8
0
10
0.122500
20
-4.430000
30
0.000000
0
SEQEND
0
POLYLINE
8
0
6
CONTINUOUS
66
1
10
0.0
20
0.0
30
0.000000
0
VERTEX
8
0
10
0.240000
20
-4.432500
30
0.000000
0
VERTEX
8
0
10
0.242500
20
-4.432500
30
0.000000
0
VERTEX
8
0
10
0.240000
20
-4.432500
30
0.000000
0
SEQEND
0
POLYLINE
8
0
6
CONTINUOUS
66
1
10
0.0
20
0.0
30
0.000000
0
VERTEX
8
0
10
0.170000
20
-4.435000
30
0.000000
0
VERTEX
8
0
10
0.167500
20
-4.432500
30
0.000000
0
VERTEX
8
0
10
0.167500
20
-4.437500
30
0.000000
0
VERTEX
8
0
10
0.170000
20
-4.435000
30
0.000000
0
SEQEND
0
POLYLINE
8
0
6
CONTINUOUS
66
1
10
0.0
20
0.0
30
0.000000
0
VERTEX
8
0
10
0.157500
20
-4.437500
30
0.000000
0
VERTEX
8
0
10
0.155000
20
-4.435000
30
0.000000
0
VERTEX
8
0
10
0.150000
20
-4.435000
30
0.000000
0
VERTEX
8
0
10
0.145000
20
-4.442500
30
0.000000
0
VERTEX
8
0
10
0.155000
20
-4.445000
30
0.000000
0
VERTEX
8
0
10
0.160000
20
-4.440000
30
0.000000
0
VERTEX
8
0
10
0.157500
20
-4.437500
30
0.000000
0
SEQEND
0
POLYLINE
8
0
6
CONTINUOUS
66
1
10
0.0
20
0.0
30
0.000000
0
VERTEX
8
0
10
0.107500
20
-4.450000
30
0.000000
0
VERTEX
8
0
10
0.102500
20
-4.447500
30
0.000000
0
VERTEX
8
0
10
0.097500
20
-4.455000
30
0.000000
0
VERTEX
8
0
10
0.110000
20
-4.467500
30
0.000000
0
VERTEX
8
0
10
0.117500
20
-4.462500
30
0.000000
0
VERTEX
8
0
10
0.117500
20
-4.457500
30
0.000000
0
VERTEX
8
0
10
0.107500
20
-4.450000
30
0.000000
0
SEQEND
0
POLYLINE
8
0
6
CONTINUOUS
66
1
10
0.0
20
0.0
30
0.000000
0
VERTEX
8
0
10
0.135000
20
-4.455000
30
0.000000
0
VERTEX
8
0
10
0.132500
20
-4.452500
30
0.000000
0
VERTEX
8
0
10
0.125000
20
-4.452500
30
0.000000
0
VERTEX
8
0
10
0.117500
20
-4.462500
30
0.000000
0
VERTEX
8
0
10
0.132500
20
-4.465000
30
0.000000
0
VERTEX
8
0
10
0.135000
20
-4.455000
30
0.000000
0
SEQEND
0
POLYLINE
8
0
6
CONTINUOUS
66
1
10
0.0
20
0.0
30
0.000000
0
VERTEX
8
0
10
2.102500
20
-4.735000
30
0.000000
0
VERTEX
8
0
10
2.100000
20
-4.732500
30
0.000000
0
VERTEX
8
0
10
2.100000
20
-4.740000
30
0.000000
0
VERTEX
8
0
10
2.102500
20
-4.735000
30
0.000000
0
SEQEND
0
ENDSEC
0
EOF
